www.splash.it  

 Splash > Musica > Cartoon
CategorieLinkSplash
Latino | Sicilia | Tattoo | Cartoline | Dizionario 
Pat la Ragazza del Baseball
Livello Superiore
Sull'intro il giro è RE SOL LA  RE SOL LA

E--------5----------------------------5---------------------------
B------------7-8-10-7-8---------------7-8-10-7-------------
G---7-----------------------9----7-------------------9----------
D-------------------------------------------------------------------
A-------------------------------------------------------------------

E-------------------------------------------------------------------

[RE]Tu giochi a baseball sei un potente lanciatore

e c'è una squadra che ha bisogno di un ta[SI-]lento

il vecchio Iwata vuole te che sei un por[FA# -]tento

solo co[SOL]sì la squadra forte [LA]torne[RE]rà


[RE]E tu ragazza sei veloce come il vento

ti batte forte il cuore in petto anch'io lo [SI-]sento

ma c'è l'ostacolo di quel regola[FA# -]mento

che non am[SOL]mette donne in [LA]squadra per gio[SOL]ca[LA]re

   [RE]Pat [FA#-]Pat ra[SOL]gazza del ba[LA]seball

   [RE]Pat [FA#-]Pat io [SOL]tifo e mi [LA]sento


   che fa[RE]rai for[FA#]tuna guarda un [SI-]po' più su

   ride [MI]anche la Luna ridi [LA]pure tu


   [RE]Pat [FA#-]Pat ra[SOL]gazza del ba[LA]seball

   [RE]Pat [FA#-]Pat un cuo[SOL]re con[LA]tento

   un sor[RE]riso buono[FA#] tanta [SI-]volontà

   questo è un [SOL]grande dono vince[LA]re ti [RE]fa

Sulle note sotto il giro è  RE FA#- SOL LA   MI SOL#- LA SI

E--------5----------------------------7-----------------------
B-----------7-8-10-7-8----------------9-10-12-9--------
G---7----------------------9----9----------------------11---

D---------------------------------------------------------------
A---------------------------------------------------------------
E---------------------------------------------------------------

[MI]Anch'io vorrei giocare con gli amici miei

dopo la scuola ritrovarmi in mezzo a un [DO# -]campo

lanciare correre ribattere in un [SOL# -]lampo

sentirmi [LA]grande e forte e[SI]roe come sei [MI]tu


[MI]Il campo è verde il sole giallo e tu sicura

di non commettere neppure un solo [DO# -]fallo

un gran campione non dovrebbe aver pa[SOL# -]ura


il tuo corag[LA]gio poi ti ricompense[MI]rà  [SI]


   [MI]Pat [SOL#-]Pat ra[LA]gazza del ba[SI]seball

   [MI]Pat [SOL#-]Pat io [LA]tifo e mi [SI]sento

   che fa[MI]rai fortu[SOL#]na guarda un [DO# -]po' più su

   ride [FA#]anche la Luna ridi [SI]pure tu


   [MI]Pat [SOL#-]Pat ra[LA]gazza del ba[SI]seball

   [MI]Pat [SOL#-]Pat un cuo[LA]re con[SI]tento

   un sor[MI]riso buono[SOL#] tanta [DO# -]volontà

   questo è un [FA#]grande dono vince[SI]re ti [MI]fa
Login
Username 
Password 
 Auto-Login 
Registrati Hai dimenticato la password?
Registrati   |   Splash in Homepage   |   Chi siamo   |   Liberatoria Legale   |   Scrivici